terça-feira, 7 de Outubro de 2008

Nirvana - Lithium

Hoje vamos a um pouco de Grunge. Esta música, apesar de tudo, é simples. Quem quiser aprender Nirvana para piano, Come As You Are está disponível.

E5 G#5 C#5 A5 C5 D5
e-----------------------------------------------------------------
a-----------------------------------------------------------------
d---------------------------6--x--------7--------------------7----
g---------------------------6--x------7--------5--5--5s7--7--7----
b---2-----------6--------4----------5----------3--3--3s5--5--5--0-
E---0--x--0--4-----x--0----------0---------0----------------------
I'm so happy 'cause today I've found my friends,

B5 D5
e-------------------------
a-------------------------
d------------------7------
g-4--4--4--4s7--7--7------
b-2--2--2--2s5--5--5---0--
E-------------------------
they're in my head. . .

I'm so ugly but that's ok, 'cause so are you, we've broke our mirrors
Sunday morning is everyday for all I care and I'm not scared
Light my candles in a daze 'cause I've found god

I'm so lonely and that's ok, I shaved my head, and I'm not sad
And just maybe I'm to blame for all I've heard, and I'm not sure
I'm so excited I can't wait to meet you there, and I dont' care
I'm so horny but that's ok, my will is good

A5 C5 A5 C5 D5 C5 A5 C5 A5
e--------------------------------------------------------------------
a--------------------------------------------------------------------
d--2-----------5---5------2---2-----5-s-7-s-5------2---2----5---5----
g--2-----------5---5------2---2-----5-s-7-s-5------2---2----3---3----
b--0---0---0---3---3---0--0---0--0--3-s-5-s-3------0---0----3---3--0-
E-----------------------------------------------3--------------------
I like you I'm not gonna crack I miss you

A5 C5
e---------------------------
a---------------------------
d--2---2-----5---5---5------
g--2---2-----5---5---5------
b--0---0--0--3---3---3----0-
E---------------------------
I'm not gonna crack

Simples, deixo a habitual power tab e música.



Download "Nirvana - Lithium" Power Tab

domingo, 28 de Setembro de 2008

Jason Mraz - Lucky

Hoje vamos a uma música bastante básica. Só acordes. O ritmo é bastante simples. Facilmente capturado ouvindo a música.

C

e ---|---|---|---|---|
B -x-|---|---|---|---|
G ---|---|---|---|---|
D ---|-x-|---|---|---|
A ---|---|-x-|---|---|
E ---|---|-o-|---|---|
Am

e ---|---|---|---|---|
B -x-|---|---|---|---|
G ---|-x-|---|---|---|
D ---|-x-|---|---|---|
A ---|---|---|---|---|
E ---|---|---|---|---|
Dm7

e -x-|---|---|---|---|
B -x-|---|---|---|---|
G ---|-x-|---|---|---|
D ---|---|---|---|---|
A ---|---|---|---|---|
E ---|---|---|---|---|
G

e ---|---|-x-|---|---|
B ---|---|---|---|---|
G ---|---|---|---|---|
D ---|---|---|---|---|
A ---|-x-|---|---|---|
E ---|---|-x-|---|---|
Em

e ---|---|---|---|---|
B ---|---|---|---|---|
G ---|---|---|---|---|
D ---|-x-|---|---|---|
A ---|-x-|---|---|---|
E ---|---|---|---|---|
C/B

e ---|---|---|---|---|
B ---|---|---|---|-x-|
G ---|---|---|---|-x-|
D ---|---|---|---|-x-|
A ---|-x-|---|---|---|
E ---|---|---|---|---|


Intro: C

Verse1:
C Am
Now do ya hear me talking to you
Dm7 G Em
Across the water, across the deep blue ocean
Am Dm7
Under the open sky, oh my
G
Baby I'm trying

Verse2:
Boy I hear you in my dreams
I feel your whisper across the sea
I keep you with me in my heart
You make it easier when life gets hard

Chorus:
Am Dm7 G
Lucky I'm in love with my best friend
C C/B Am
Lucky to have been where I have been
Dm7 G
Lucky to be coming home again
C Am Em G
Ooooh ooh-oooooh ooh-ooooooh....

Bridge:
Dm7 Am
They don't know how long it takes
G Dm7
Waiting for a love like this
Am G Dm7
Every time we say goodbye, I wish we had one more kiss
Am G
I'll wait for you, I promise you, I will

Chorus:
I'm lucky I'm in love with my best friend
Lucky to have been where I have been
Lucky to be coming home again

Lucky we're in love in every way
Lucky to have stayed where we have stayed
Lucky to be coming home some day

verse3:
And so I'm sailing, through the sea
To an island, where we'll meet
You'll hear the music, fill the air
I put a flower in you hair

Verse4:
And though the breezes through the trees
Move so pretty, you're all I see
Let the world keep spinning round
You hold me right here, right now

Chorus:
I'm lucky I'm in love with my best friend
Lucky to have been where I have been
Lucky to be coming home again

Lucky we're in love in every way
Lucky to have stayed where we have stayed
Lucky to be coming home some day
oooooh oooh-oooooooh ooooh-ooooh.....

segunda-feira, 15 de Setembro de 2008

Jimi Hendrix - Purple Haze

Há uma versão para teclado desta música no blog Aprender a Tocar Piano.
Bem, a música é constituída basicamente por um riff, que vai tendo variações, e que eu não vou estar a postar aqui, disponibilizando a power tab, tornando o post mais pequeno, e mesmo assim, com tudo. Okay, aqui está o intro.

Intro:
e|----------------------------------------------|
h|----------------------------------------------|
g|----------------------------------------------|
D|------8-------8-------8------8----------------|
A|----------------------------------------------|
E|--6-------6------6------6---------------------|

e|----------------------------------------------|
h|------------9---------------------------------|
g|--------7-------------------------------------|
D|--8>9-----------7v----7>5--0------------------|
A|-------------------------------7--7v----------|
E|----------------------------------------------| x2

e|-----------------------------------------------------------------------------------|
h|-----------------------------------------------------------------------------------|
g|------------------------------------------------------------------------7--7--9v---|
D|--------5---7---5v---5-----------------------5----7--5>7v---7--5--5>9--------------|
A|--5>7-------------------0---------------5>7----------------------------------------|
E|----------------------------0---3v-------------------------------------------------|
Riff:

O riff é constituído por 3 acordes:
     E7#9    G      A
e|----------------------|
h|---8------------------|
g|---7------------------|
D|---6-------5------7---|
A|---7-------5------7---|
E|---0-------3------5---|

e|----------------------------------------------|
h|--------------------------8b-------------8b---|
g|----------------------7--------------7--------|
D|--5>7--5--------7>9------------7>9------------|
A|----------7-----------------------------------|
E|----------------------------------------------|
Ao ouvirem a música (ou ao fazerem download da power tab, e ouvirem o pc a tocá-la), irão conseguir fazer o ritmo certo para a música.

Solo:
               Help me                                Help me!
e|--------------------------------------------------------------------------------|
h|-------------12b--------------12b-----------------15b--------------15b----------|
g|---------9----------------9-----------------12----------------12----------------|
D|---9>11-------------9>11-------------13>14-------------13>14--------------------|
A|--------------------------------------------------------------------------------|
E|--------------------------------------------------------------------------------|

e|----------------------------------------------|
h|-------15---------15---15--15-----------------|
g|---14------14-----14---14--14-----------------|
D|----------------------------------------------|
A|----------------------------------------------|
E|----------------------------------------------|

e|----------------------------------------------------------------|
h|----------------------------------------------------------------|
g|--16--18--16v--16--14--13----13--14--13--------13--14--16-------|
D|------------------------------------------16--------------------|
A|----------------------------------------------------------------|
E|----------------------------------------------------------------|

(01:21)
e|-------------------------------------------------|
h|-------------------------------------------------|
g|--------12--14--12------12v--12-12--11-----------|
D|-12>14--------------14------------------14---12--|
A|-------------------------------------------------|
E|-------------------------------------------------|

(01:24)
e|----------------------------------------------|
h|----------------------------------------------|
g|----------------------------------------------|
D|--12--14--12--14--12v-------------------------|
A|----------------------------------------------|
E|----------------------------------------------|

e|----------------------------------------------|
h|----------------------------------------------|
g|-------------11b--------------11--------------|
D|--11>12--14-------14--12--14-------12---------|
A|----------------------------------------------|
E|----------------------------------------------|

e|----------------------------------------------|
h|----------------------------------------------|
g|--11------11------11--------------------------|
D|------12------12------12v---------------------|
A|----------------------------------------------|
E|----------------------------------------------|

(01:29)
e|----------------------------------------------|
h|----------------------------------------------|
g|-------------11--12--11>12>11-----------------|
D|--11>12--14-----------------------------------|
A|----------------------------------------------|
E|----------------------------------------------|

e|----------------------------------------------|
h|----------------------------------------------|
g|---11>12>11--------------------12b------------|
D|--------------14--12v---12>14--------14-------|
A|----------------------------------------------|
E|----------------------------------------------|

During, ooh!, aah!, ooh!, aah! etc..

e|----------------------------------------------|
h|------------9---------------------------------|
g|--------7-------------------------------------|
D|--8>9-----------7v----7>5--0------------------|
A|-------------------------------7--7v----------|
E|----------------------------------------------| x2

e|----------------------------------------------|
h|----------------------------------------------|
g|----------------------------------------------|
D|-------5--7--5>9v----5------------------------|
A|--5>7-------------------0---------------------|
E|---------------------------0---3v-------------|

e|----------------------------------------------|
h|------------9---------------------------------|
g|--------7-------------------------------------|
D|--8>9-----------7v----7>5--0------------------|
A|-------------------------------7--7v----------|
E|----------------------------------------------|
Outro (2:11):
e|----------------------------------------------|
h|----------------------------------------------|
g|--------------12v--------------12v------------|
D|----------12--------10>12--14-----------------|
A|---12>14--------------------------------------|
E|----------------------------------------------|

e|----------------------------|
h|----------------------------|
g|--12--14--12-------12v------|
D|--------------14------------|
A|----------------------------|
E|----------------------------|

e|----------------------------------------------|
h|-17v--17v--17v--17v--17v--17v--17v--etc..-----|
g|----------------------------------------------|
D|----------------------------------------------|
A|----------------------------------------------|
E|----------------------------------------------|

E acaba. Deixo-vos a música e a power tab.



Download "Jimi Hendrix - Purple Haze" power tab

sábado, 13 de Setembro de 2008

The Doors - Break On Through

Hoje, vamos a uma pequena música blues-rock bastante conhecida. Break On Through é um clássico dos The Doors, mas bastante simples, no que toca a técnica instrumental. A música tem duas partes principais, o intro/verso, uma progressão (riff) e o refrão (um pouco mais rápido, mas igualmente simples). No final, temos uma 2ª progressão (riff), e o outro, que é basicamente uma variação do refrão.

Intro/Versos:

e-|----------------------------------------
B-|----------------------------------------
G-|----------------------------------------
D-|---------------2--0-----2--2-----0--(2)-
A-|--------------------(2)-------2---------
E-|----12\---(0)---------------------------

You know the day destroys the night,
night divides the day


Este é o intro/verso. As notas entro parênteses, são notas tocadas apenas é certas partes da música, de modo a causar uma variação e por si, dar um pouco mais de musicalidade.

Progressão:

e-|----2-------2------------2--------2--
B-|----3-------3------------3--------3--
G-|----2-------2------------2--------2--
D-|----0-------0------------0--------0--
A-|---(0)-----(0)----------(0)------(0)-
E-|-------------------------------------

Tried to run, tried to hide


Refrão:

e-|------------------------------------------
B-|------------------------------------------
G-|----------------------0h2p0---------------
D-|---------------0-1h2----------2--(0)--(2)-
A-|--------0h1-2-----------------------------
E-|---0-3------------------------------------

Break on through to the other side,
Break on through to the other side,
Break on through to the other side,
yeah.


[Repetir Intro/Verso e Progressão]

We chased our pleasures here, dug our treasures there
But can ya still recall the time we cried?

[Repetir Refrão]

Break on through to the other side,
Break on through to the other side.

[Repetir Intro/Verso (acompanhando o Solo de Órgão)]

Everybody loves my baby, everybody loves my baby,
She get...She get...She get...She get...high.....

[Repetir Intro/Verso e Progressão]

I found an island in your arms, country in your eyes,
Arms that chain, eyes that lie.

Refrão (final):

e-|----------------------------------------|----------------------------------
B-|----------------------------------------|----------------------------------
G-|----------------------0h2p0-------------|----------------------------------
D-|---------------0-1h2----------2---0-2---|-----------0h1h2------------0h1h2-
A-|--------0h1-2---------------------------|-----0h1h2------------0h1h2-------
E-|---0-3----------------------------------|-0-3--------------0-3------------

2ª Progressão:

e-|-----15--15------15---15---15-----15--15----15---15---15---X---15--
B-|-----15--15------15---15---15-----15--15----15---15---15---X---15--
G-|-----13--13------13---13---13-----13--13----13---13---13---X---13--
D-|-------------------------------------------------------------------
A-|-------------------------------------------------------------------
E-|--0-----------------0----0----0-----------0----0----0--------------

[2ª Progressão]

Made the scene, week to week, day to day, hour to hour

[1ª Progressão]

Gate is straight, deep and wide

Outro:

e-|-----------------------------------
B-|-----------------------------------
G-|-------------------0h2p0-----------
D-|-------------0-1h2---------2--0-2--
A-|-------0h1-2-----------------------
E-|---0-3-----------------------------

Break on through to the other side,
Break on through to the other side,

e-|-------------------
B-|-------------------
G-|-------------------
D-|--------------0-2--
A-|-------0h1h2-------
E-|---0-3-------------

Break on through,
Break on through,
Break on through

e-|---------------------0-----0---0-0--0-0--0-0--0-0--0-0--0-0--0-0--0-0--0-0-
B-|-----------2h3h5----b3----b3----b3---b3---b3---b3---b3---b3---b3---b3---b3-
G-|---0h2h3h4-----------------------------------------------------------------
D-|---------------------------------------------------------------------------
A-|---------------------------------------------------------------------------
E-|---------------------------------------------------------------------------

Break on through, yeah, yeah, yeah, yeah, yeah, yeah, yeah, yeah, yeah!

h = hammer-on
p = pull-off
b = bend up
\ = Slide down
/ = Slide up

A música é fundamentalmente assim, oiçam e vão reparando nas variações, para que saia um som melhor, mas o básico da música é isto. Antes de ir, deixo também o solo do órgão adaptado para guitarra, um vídeo para ouvirem a música e uma versão "power tab" da música disponível para download. Até à próxima.

Solo De Órgão para Guitarra:

e-|--0--0--0-0--0-0--0--0-0--0-3-3--3-3--0-3-0--
B-|--0--0--0-0--0-0--0--0-0--0-3-3--3-3--0-3-0--
G-|---------------------------------------------
D-|---------------------------------------------
A-|---------------------------------------------
E-|--------------------------------------------- (x1)

e-|--0-0-0--7-7-7-5-----------------------------
B-|---------------------7-----------------------
G-|---------------------------------------------
D-|---------------------------------------------
A-|---------------------------------------------
E-|--------------------------------------------- (x3)

[acompanhar com o verso]

e-|--12b13--12b13--12b13--12b13--10h12----------
B-|---------------------------------------------
G-|---------------------------------------------
D-|---------------------------------------------
A-|---------------------------------------------
E-|--------------------------------------------- (x3)

e-|--12-12--10-10--12-12-12--10-10--------------
B-|---------------------------------------------
G-|---------------------------------------------
D-|---------------------------------------------
A-|---------------------------------------------
E-|--------------------------------------------- (x3)

e-|---------------------------------------------
B-|---------------------------------------------
G-|---------------------------------------------
D-|---------2-0----2-2----0---------------------
A-|--------------2------2----2------------------
E-|--7s0----------------------------------------

Everybody loves my baby, everybody loves my baby,
She get...She get...She get...She get...high.....




Download "Break On Through" Power Tab

quarta-feira, 10 de Setembro de 2008

Oasis - Wonderwall

A música em si é bastante fácil de tocar, apenas tem ligeiras variações a tocar, terão apenas
de possuir um capo, colocado no 2º traste, ou afinar as cordas um tom acima do standard.

Afinação: F#2, B2, E3, A3, C#3, F#4

Acordes Usados:

[cordas]
654321
EADGBe
Em7 (022033)
G (320033)
Dsus4 (xx0233)
A7sus4 (x02033)
Cadd9 (x32033)
Dsus4/F# (2x0233) [não confudir com G/F# (200033)]

Intro:

Em7 G Dsus4 A7sus4
e--x--x--3--x-x-x-x-3--3-3---3-3--3--3-3-3--3--3-3-3-3-3-3-3----
B--x--x--3--x-x-x-x-3--3-3---3-3--3--3-3-3--3--3-3-3-3-3-3-3----
G--x--x--0--x-x-x-x-0--0-0---2-2--2--2-0-0--0--0-0-0-0-0-0-0----
D--2--x--2--2-0-0-0-0--0-0---0-0--0--0-0-2--2--0-2-2-0-2-2-0----
A--2--x--2--2-2-2-2-2--2-2---------------0--0----0-0-0-0-0------
E--0--x--0--0-3-3-3-3--3-3--------------------------------------
V V V V V ^ ^ V V V ^ V ^ V V V ^ ^ V ^ ^ V ^ ^ V
[ritmo]

Esta é a versão que eu toco, um pouco diferente, mas sem grandes variações do original.

Verso 1
(da mesma forma que o intro)
---

Em7 G Dsus4 A7sus4
Today is gonna be the day that they're gonna throw it back to you
Em7 G Dsus4 A7sus4
By now you should've somehow realized what you gotta do
Em7 G Dsus4 A7sus4
I don't believe that anybody feels the way I do
Cadd9 Dsus4 A7sus4
About you now

Verso 2
(da mesma forma que o intro)
---

Em7 G Dsus4 A7sus4
Backbeat, the word is on the street that the fire in your heart is out
Em7 G Dsus4 A7sus4
I'm sure you've heard it all before but you never really had a doubt
Em7 G Dsus4 A7sus4
I don't believe that anybody feels the way I do
Em7 G Dsus4 A7sus4
about you now

Pré-Refrão
----------
[Este é o dedilhado que acompanha os acordes, nesta parte da música]

Cadd9 Dsus4 Em7
And all the roads we have to walk are winding
e-------3------------2h3p2----------------------------------------
B----------3----------------3-------------------------------------
G-------------0----------------2-----------------0-----------0----
D--------------------0------------------------0---------0h2-------
A---3------------------------------------0h2---------2------------
E-------------------------------------0---------------------------

Cadd9 Dsus4 Em7
And all the lights that lead us there are blinding
Cadd9 Dsus4
There are many things that I
G Dsus4/F# Em7 G A7sus4
would like to say to you but I don't know how
e-------3--------3--------3---------3-----------------0-------------0---------
B---------3--------3--------3---------3-----------3------3--------------3-----
G-----------0--------0--------0---------0-----------0------0----------------0-
D-----------------------------------------------------------------------------
A---------------------------------------------------------------2-------------
E-----3-------2---------0---------3-----------0-------------------------------

e-----------0---------------------
B------3-------3-------3----------
G--------0-------0----------------
D-----------------------------0---
A--0-----------------2----0h2-----
E---------------------------------

Refrão
---
Cadd9 Em7 G Em7 Cadd9 Em7 G
Because maybe You're gonna be the one that saves me
Em7 Cadd9 Em7 G Em7 Cadd9 Em7 G Em7
And after all You're my wonderwall

Depois do refrão, fazer isto e voltar à progressão original da música, segundo o intro.

e--3-3-3-3-3-3-3---
B--3-3-3-3-3-3-3---
G--0-0-0-0-0-0-0---
D--0-2-2-0-2-2-0---
A--0-0-0-0-0-0-0---
E------------------


Verse 3
---
[mesmo que o Verso 2]
Today was gonna be the day but they'll never throw it back to you
By now you should've somehow realized what you're not to do
I don't believe that anybody feels the way I do about you now

Pré-Refrão
---
And all the roads that lead you there were winding
And all the lights that light the way are blinding
There are many things that I would like to say to you,
but I don't know how

Refrão
---
I said maybe
You're gonna be the one that saves me
And after all
You're my wonderwall

Outro
---
[tocar este dedilhado na parte final da música, enquanto toca o refrão simultaneamente]

Cadd9 Em7 G Em7
e--------3--0-------------3--0----
B--0--1----------1--0--1----------
G---------------------------------
D---------------------------------
A---------------------------------
E---------------------------------

Final da música, em dedilhado:
---

[Nota: Este dedilhado é sem capo, ou com afinação standard]


e--------------0--------------------0-----
B--------0--------0--------2--------2-----
G-----------2--------2-----2--------2-----
D-----4-----------------0--2--4--2--2-----
A--4-----------------------0--0-----0-----
E-----------------------------------------


Bem-Vindo

Este blog pretende dar uma base a todos aqueles que pretendam aprender a tocar guitarra, tanto acústica como eléctrica, dando acordes para guitarra, escalas de guitarra, tablaturas para guitarra, cifras. Também pretendo incluír técnicas de solo, acordes para escalas, escalas para acordes, escalas invertidas, progressões, algumas músicas a ser tocadas, e muito mais. Fiquem atentos.